  0
SECTION
  2
HEADER
  9
$ACADVER
  1
AC1009
  9
$INSBASE
 10
0.0
 20
0.0
 30
0.0
  9
$EXTMIN
 10
101.4912420621739
 20
172.8814095841737
 30
-0.0000000000112498
  9
$EXTMAX
 10
119.3234256763517
 20
237.369782116229
 30
0.0000000000002956
  9
$LIMMIN
 10
0.0
 20
0.0
  9
$LIMMAX
 10
210.0
 20
297.0
  9
$ORTHOMODE
 70
     0
  9
$REGENMODE
 70
     1
  9
$FILLMODE
 70
     1
  9
$QTEXTMODE
 70
     0
  9
$MIRRTEXT
 70
     1
  9
$DRAGMODE
 70
     2
  9
$LTSCALE
 40
1.0
  9
$OSMODE
 70
   959
  9
$ATTMODE
 70
     1
  9
$TEXTSIZE
 40
3.5
  9
$TRACEWID
 40
1.0
  9
$TEXTSTYLE
  7
STANDARD
  9
$CLAYER
  8
0
  9
$CELTYPE
  6
BYLAYER
  9
$CECOLOR
 62
   256
  9
$DIMSCALE
 40
1.0
  9
$DIMASZ
 40
3.0
  9
$DIMEXO
 40
1.0
  9
$DIMDLI
 40
3.75
  9
$DIMRND
 40
0.0
  9
$DIMDLE
 40
0.0
  9
$DIMEXE
 40
1.0
  9
$DIMTP
 40
0.0
  9
$DIMTM
 40
0.0
  9
$DIMTXT
 40
3.5
  9
$DIMCEN
 40
2.5
  9
$DIMTSZ
 40
0.0
  9
$DIMTOL
 70
     0
  9
$DIMLIM
 70
     0
  9
$DIMTIH
 70
     1
  9
$DIMTOH
 70
     1
  9
$DIMSE1
 70
     0
  9
$DIMSE2
 70
     0
  9
$DIMTAD
 70
     1
  9
$DIMZIN
 70
     0
  9
$DIMBLK
  1

  9
$DIMASO
 70
     1
  9
$DIMSHO
 70
     1
  9
$DIMPOST
  1

  9
$DIMAPOST
  1

  9
$DIMALT
 70
     0
  9
$DIMALTD
 70
     3
  9
$DIMALTF
 40
0.0393700787
  9
$DIMLFAC
 40
0.5
  9
$DIMTOFL
 70
     1
  9
$DIMTVP
 40
0.0
  9
$DIMTIX
 70
     0
  9
$DIMSOXD
 70
     0
  9
$DIMSAH
 70
     0
  9
$DIMBLK1
  1

  9
$DIMBLK2
  1

  9
$DIMSTYLE
  2
ISO-25
  9
$DIMCLRD
 70
     0
  9
$DIMCLRE
 70
     0
  9
$DIMCLRT
 70
     0
  9
$DIMTFAC
 40
1.0
  9
$DIMGAP
 40
1.524
  9
$LUNITS
 70
     2
  9
$LUPREC
 70
     2
  9
$SKETCHINC
 40
1.0
  9
$FILLETRAD
 40
10.0
  9
$AUNITS
 70
     0
  9
$AUPREC
 70
     2
  9
$MENU
  1
.
  9
$ELEVATION
 40
0.0
  9
$PELEVATION
 40
0.0
  9
$THICKNESS
 40
0.0
  9
$LIMCHECK
 70
     0
  9
$BLIPMODE
 70
     0
  9
$CHAMFERA
 40
0.0
  9
$CHAMFERB
 40
0.0
  9
$SKPOLY
 70
     0
  9
$TDCREATE
 40
2457599.3296526042
  9
$TDUPDATE
 40
2457725.7410308332
  9
$TDINDWG
 40
0.0075342824
  9
$TDUSRTIMER
 40
0.0075341319
  9
$USRTIMER
 70
     1
  9
$ANGBASE
 50
0.0
  9
$ANGDIR
 70
     0
  9
$PDMODE
 70
     0
  9
$PDSIZE
 40
-1.0
  9
$PLINEWID
 40
0.0
  9
$COORDS
 70
     1
  9
$SPLFRAME
 70
     0
  9
$SPLINETYPE
 70
     6
  9
$SPLINESEGS
 70
     8
  9
$ATTDIA
 70
     0
  9
$ATTREQ
 70
     1
  9
$HANDLING
 70
     1
  9
$HANDSEED
  5
6BF
  9
$SURFTAB1
 70
     6
  9
$SURFTAB2
 70
     6
  9
$SURFTYPE
 70
     6
  9
$SURFU
 70
     6
  9
$SURFV
 70
     6
  9
$UCSNAME
  2

  9
$UCSORG
 10
0.0
 20
0.0
 30
0.0
  9
$UCSXDIR
 10
1.0
 20
0.0
 30
0.0
  9
$UCSYDIR
 10
0.0
 20
1.0
 30
0.0
  9
$PUCSNAME
  2

  9
$PUCSORG
 10
0.0
 20
0.0
 30
0.0
  9
$PUCSXDIR
 10
1.0
 20
0.0
 30
0.0
  9
$PUCSYDIR
 10
0.0
 20
1.0
 30
0.0
  9
$USERI1
 70
     0
  9
$USERI2
 70
     0
  9
$USERI3
 70
     0
  9
$USERI4
 70
     0
  9
$USERI5
 70
     0
  9
$USERR1
 40
0.0
  9
$USERR2
 40
0.0
  9
$USERR3
 40
0.0
  9
$USERR4
 40
0.0
  9
$USERR5
 40
0.0
  9
$WORLDVIEW
 70
     1
  9
$SHADEDGE
 70
     3
  9
$SHADEDIF
 70
    70
  9
$TILEMODE
 70
     1
  9
$MAXACTVP
 70
    64
  9
$PLIMCHECK
 70
     0
  9
$PEXTMIN
 10
1.0000000000000000E+020
 20
1.0000000000000000E+020
 30
1.0000000000000000E+020
  9
$PEXTMAX
 10
-1.0000000000000000E+020
 20
-1.0000000000000000E+020
 30
-1.0000000000000000E+020
  9
$PLIMMIN
 10
0.0
 20
0.0
  9
$PLIMMAX
 10
420.0
 20
297.0
  9
$UNITMODE
 70
     0
  9
$VISRETAIN
 70
     1
  9
$PLINEGEN
 70
     0
  9
$PSLTSCALE
 70
     1
  0
ENDSEC
  0
SECTION
  2
TABLES
  0
TABLE
  2
VPORT
 70
     1
  0
VPORT
  2
*ACTIVE
 70
     0
 10
0.0
 20
0.0
 11
1.0
 21
1.0
 12
103.63139693072181
 22
205.533348604042
 13
0.0
 23
0.0
 14
10.0
 24
10.0
 15
10.0
 25
10.0
 16
0.0
 26
0.0
 36
1.0
 17
0.0
 27
0.0
 37
0.0
 40
103.6604496518182
 41
1.1682905225863589
 42
50.0
 43
0.0
 44
0.0
 50
0.0
 51
0.0
 71
     0
 72
  2000
 73
     1
 74
     3
 75
     0
 76
     0
 77
     0
 78
     0
  0
ENDTAB
  0
TABLE
  2
LTYPE
 70
     6
  0
LTYPE
  2
CONTINUOUS
 70
     0
  3
Solid line
 72
    65
 73
     0
 40
0.0
  0
LTYPE
  2
HIDDEN
 70
     0
  3
Hidden __ __ __ __ __ __ __ __ __ __ __ __ __ __
 72
    65
 73
     2
 40
1.905
 49
1.27
 49
-0.635
  0
LTYPE
  2
PHANTOM
 70
     0
  3
Phantom ______  __  __  ______  __  __  ______
 72
    65
 73
     6
 40
12.699999999999999
 49
6.349999999999997
 49
-1.27
 49
1.27
 49
-1.27
 49
1.27
 49
-1.27
  0
LTYPE
  2
CENTER
 70
     0
  3
Center ____ _ ____ _ ____ _ ____ _ ____ _ ____
 72
    65
 73
     4
 40
10.16
 49
6.349999999999997
 49
-1.27
 49
1.27
 49
-1.27
  0
LTYPE
  2
CENTERX2
 70
     0
  3
Center (2x) ________  __  ________  __  _____
 72
    65
 73
     4
 40
20.32
 49
12.699999999999999
 49
-2.54
 49
2.54
 49
-2.54
  0
LTYPE
  2
DOT2
 70
     0
  3
Dot (.5x) ........................................
 72
    65
 73
     2
 40
0.635
 49
0.0
 49
-0.635
  0
ENDTAB
  0
TABLE
  2
LAYER
 70
    15
  0
LAYER
  2
0
 70
     0
 62
     7
  6
CONTINUOUS
  0
LAYER
  2
FORMAT
 70
     0
 62
     7
  6
CONTINUOUS
  0
LAYER
  2
SLD-0
 70
     0
 62
   179
  6
CONTINUOUS
  0
LAYER
  2
ANA
 70
     0
 62
     3
  6
CONTINUOUS
  0
LAYER
  2
ANTET1
 70
     0
 62
     4
  6
CONTINUOUS
  0
LAYER
  2
ANTET
 70
     0
 62
     3
  6
CONTINUOUS
  0
LAYER
  2
ANTET2
 70
     0
 62
     1
  6
CONTINUOUS
  0
LAYER
  2
ANTET4
 70
     0
 62
   179
  6
CONTINUOUS
  0
LAYER
  2
ANTET3
 70
     0
 62
     1
  6
CONTINUOUS
  0
LAYER
  2
OLCU
 70
     0
 62
     1
  6
CONTINUOUS
  0
LAYER
  2
GORUNMEZ
 70
     0
 62
    55
  6
HIDDEN
  0
LAYER
  2
EKSEN
 70
     0
 62
     1
  6
CENTER
  0
LAYER
  2
KESIT_1
 70
     0
 62
     4
  6
PHANTOM
  0
LAYER
  2
KESIT_2
 70
     0
 62
     7
  6
PHANTOM
  0
LAYER
  2
3
 70
     0
 62
   174
  6
CONTINUOUS
  0
ENDTAB
  0
TABLE
  2
STYLE
 70
     2
  0
STYLE
  2
STANDARD
 70
     0
 40
0.0
 41
1.0
 50
0.0
 71
     0
 42
3.5
  3
txt
  4

  0
STYLE
  2
ANNOTATIVE
 70
     0
 40
0.0
 41
1.0
 50
0.0
 71
     0
 42
0.2
  3
txt
  4

  0
ENDTAB
  0
TABLE
  2
VIEW
 70
     0
  0
ENDTAB
  0
TABLE
  2
UCS
 70
     0
  0
ENDTAB
  0
TABLE
  2
APPID
 70
     4
  0
APPID
  2
ACAD
 70
     0
  0
APPID
  2
ACADANNOTATIVE
 70
     0
  0
APPID
  2
ACAD_NAV_VCDISPLAY
 70
     0
  0
APPID
  2
ACAD_MLEADERVER
 70
     0
  0
ENDTAB
  0
TABLE
  2
DIMSTYLE
 70
     3
  0
DIMSTYLE
  2
STANDARD
 70
     0
  3

  4

  5

  6

  7

 40
1.0
 41
0.18
 42
0.0625
 43
0.38
 44
0.18
 45
0.0
 46
0.0
 47
0.0
 48
0.0
140
0.18
141
0.09
142
0.0
143
25.399999999999999
144
1.0
145
0.0
146
1.0
147
0.09
 71
     0
 72
     0
 73
     1
 74
     1
 75
     0
 76
     0
 77
     0
 78
     0
170
     0
171
     2
172
     0
173
     0
174
     0
175
     0
176
     0
177
     0
178
     0
  0
DIMSTYLE
  2
ANNOTATIVE
 70
     0
  3

  4

  5

  6

  7

 40
1.0
 41
0.18
 42
0.0625
 43
0.38
 44
0.18
 45
0.0
 46
0.0
 47
0.0
 48
0.0
140
0.18
141
0.09
142
0.0
143
25.399999999999999
144
1.0
145
0.0
146
1.0
147
0.09
 71
     0
 72
     0
 73
     1
 74
     1
 75
     0
 76
     0
 77
     0
 78
     0
170
     0
171
     2
172
     0
173
     0
174
     0
175
     0
176
     0
177
     0
178
     0
  0
DIMSTYLE
  2
ISO-25
 70
     0
  3

  4

  5

  6

  7

 40
1.0
 41
2.5
 42
0.625
 43
3.75
 44
1.25
 45
0.0
 46
0.0
 47
0.0
 48
0.0
140
2.5
141
2.5
142
0.0
143
0.0393700787
144
1.0
145
0.0
146
1.0
147
0.625
 71
     0
 72
     0
 73
     0
 74
     0
 75
     0
 76
     0
 77
     1
 78
     8
170
     0
171
     3
172
     1
173
     0
174
     0
175
     0
176
     0
177
     0
178
     0
  0
ENDTAB
  0
ENDSEC
  0
SECTION
  2
BLOCKS
  0
BLOCK
  8
0
  2
$MODEL_SPACE
 70
     0
 10
0.0
 20
0.0
 30
0.0
  3
$MODEL_SPACE
  1

  0
ENDBLK
  5
631
  8
0
  0
BLOCK
 67
     1
  8
0
  2
$PAPER_SPACE
 70
     0
 10
0.0
 20
0.0
 30
0.0
  3
$PAPER_SPACE
  1

  0
ENDBLK
  5
62D
 67
     1
  8
0
  0
ENDSEC
  0
SECTION
  2
ENTITIES
  0
LINE
  5
81
  8
0
  6
CONTINUOUS
 62
     7
 10
118.1040894299
 20
231.9863122177
 30
0.0
 11
118.1622877776
 21
232.00190628289999
 31
0.0
  0
LINE
  5
82
  8
0
  6
CONTINUOUS
 62
     7
 10
118.1622877776
 20
232.00190628289999
 30
0.0
 11
119.15780641720001
 21
231.9322917831
 31
0.0
  0
LINE
  5
83
  8
0
  6
CONTINUOUS
 62
     7
 10
119.15780641720001
 20
231.9322917831
 30
0.0
 11
119.3206612079
 21
231.33156264549999
 31
0.0
  0
LINE
  5
84
  8
0
  6
CONTINUOUS
 62
     7
 10
119.3206612079
 20
231.05302455250001
 30
0.0
 11
119.3206612079
 21
231.33156264549999
 31
0.0
  0
ARC
  5
85
  8
0
  6
CONTINUOUS
 62
     7
 10
119.0206615007
 20
231.0530253279
 30
0.0
 40
0.3000000000000038
 50
311.81031489579999
 51
0.0
  0
LINE
  5
86
  8
0
  6
CONTINUOUS
 62
     7
 10
119.2206613778
 20
230.8294177276
 30
0.0
 11
119.2206613778
 21
229.49687766260001
 31
0.0
  0
ARC
  5
87
  8
0
  6
CONTINUOUS
 62
     7
 10
119.0206615007
 20
229.27327173239999
 30
0.0
 40
0.2999999999999972
 50
0.0
 51
48.189685104199988
  0
LINE
  5
88
  8
0
  6
CONTINUOUS
 62
     7
 10
119.3206612079
 20
228.46606376
 30
0.0
 11
119.3206612079
 21
229.27327083770001
 31
0.0
  0
LINE
  5
89
  8
0
  6
CONTINUOUS
 62
     7
 10
119.3206612079
 20
228.46606376
 30
0.0
 11
119.1275905876
 21
228.46606376
 31
0.0
  0
LINE
  5
8A
  8
0
  6
CONTINUOUS
 62
     7
 10
119.1706614627
 20
228.3160630834
 30
0.0
 11
119.1144673212
 21
228.3160630834
 31
0.0
  0
LINE
  5
8B
  8
0
  6
CONTINUOUS
 62
     7
 10
119.1706614627
 20
216.6490517778
 30
0.0
 11
119.1706614627
 21
228.3160630834
 31
0.0
  0
ARC
  5
8C
  8
0
  6
CONTINUOUS
 62
     7
 10
115.3206615007
 20
216.6490517268
 30
0.0
 40
3.8500000000000791
 50
315.0
 51
0.0
  0
LINE
  5
8D
  8
0
  6
CONTINUOUS
 62
     7
 10
116.4353912755
 20
212.24834865310001
 30
0.0
 11
115.09321109050001
 21
210.906168468
 31
0.0
  0
LINE
  5
8E
  8
0
  6
CONTINUOUS
 62
     7
 10
104.96449135829999
 20
210.64256506390001
 30
0.0
 11
104.96449135829999
 21
210.54256476809999
 31
0.0
  0
LINE
  5
8F
  8
0
  6
CONTINUOUS
 62
     7
 10
102.0016264229
 20
210.54256476809999
 30
0.0
 11
104.96449135829999
 21
210.54256476809999
 31
0.0
  0
ARC
  5
90
  8
0
  6
CONTINUOUS
 62
     7
 10
102.00162573030001
 20
210.74256465139999
 30
0.0
 40
0.2000000000000028
 50
180.0
 51
270.0
  0
LINE
  5
91
  8
0
  6
CONTINUOUS
 62
     7
 10
101.80162489999999
 20
210.742564894
 30
0.0
 11
101.80162489999999
 21
213.54256479419999
 31
0.0
  0
ARC
  5
92
  8
0
  6
CONTINUOUS
 62
     7
 10
101.80162506320001
 20
213.84256464200001
 30
0.0
 40
0.2999999905107159
 50
89.999872589899979
 51
270.00012741009999
  0
LINE
  5
93
  8
0
  6
CONTINUOUS
 62
     7
 10
101.80162489999999
 20
214.14256470620001
 30
0.0
 11
101.80162489999999
 21
215.04256504
 31
0.0
  0
ARC
  5
94
  8
0
  6
CONTINUOUS
 62
     7
 10
101.8016249258
 20
215.34256461940001
 30
0.0
 40
0.3000000130952842
 50
89.999846357299973
 51
270.00015364270001
  0
LINE
  5
95
  8
0
  6
CONTINUOUS
 62
     7
 10
101.80162489999999
 20
215.6425649521
 30
0.0
 11
101.80162489999999
 21
216.54256435459999
 31
0.0
  0
ARC
  5
96
  8
0
  6
CONTINUOUS
 62
     7
 10
101.8016249945
 20
216.84256468410001
 30
0.0
 40
0.2999999483682458
 50
89.999859473199976
 51
270.00014052680001
  0
LINE
  5
97
  8
0
  6
CONTINUOUS
 62
     7
 10
101.80162489999999
 20
217.14256426669999
 30
0.0
 11
101.80162489999999
 21
218.0425646004
 31
0.0
  0
ARC
  5
98
  8
0
  6
CONTINUOUS
 62
     7
 10
101.80162506320001
 20
218.3425645742
 30
0.0
 40
0.3000000582641774
 50
89.999872589199995
 51
270.00012741080002
  0
LINE
  5
99
  8
0
  6
CONTINUOUS
 62
     7
 10
101.80162489999999
 20
218.6425645125
 30
0.0
 11
101.80162489999999
 21
219.5425648463
 31
0.0
  0
ARC
  5
9A
  8
0
  6
CONTINUOUS
 62
     7
 10
101.8016251319
 20
219.84256469709999
 30
0.0
 40
0.2999999353295096
 50
89.999885705099999
 51
270.00011429490002
  0
LINE
  5
9B
  8
0
  6
CONTINUOUS
 62
     7
 10
101.80162489999999
 20
220.14256382709999
 30
0.0
 11
101.80162489999999
 21
221.04256416090001
 31
0.0
  0
ARC
  5
9C
  8
0
  6
CONTINUOUS
 62
     7
 10
101.8016252005
 20
221.3425645872
 30
0.0
 40
0.3000000452255294
 50
89.999898821200006
 51
270.00010117879998
  0
LINE
  5
9D
  8
0
  6
CONTINUOUS
 62
     7
 10
101.80162489999999
 20
221.6425650043
 30
0.0
 11
101.80162489999999
 21
222.54256347539999
 31
0.0
  0
ARC
  5
9E
  8
0
  6
CONTINUOUS
 62
     7
 10
101.8016252111
 20
222.84256447729999
 30
0.0
 40
0.3000001551211202
 50
89.999900833300003
 51
270.00009916670001
  0
LINE
  5
9F
  8
0
  6
CONTINUOUS
 62
     7
 10
101.80162489999999
 20
223.1425643188
 30
0.0
 11
101.80162489999999
 21
224.04256465259999
 31
0.0
  0
ARC
  5
A0
  8
0
  6
CONTINUOUS
 62
     7
 10
101.80162506320001
 20
224.3425645742
 30
0.0
 40
0.3000000582642058
 50
89.999872589199995
 51
270.00012741080002
  0
LINE
  5
A1
  8
0
  6
CONTINUOUS
 62
     7
 10
101.80162489999999
 20
224.642565496
 30
0.0
 11
101.80162489999999
 21
225.54256396709999
 31
0.0
  0
ARC
  5
A2
  8
0
  6
CONTINUOUS
 62
     7
 10
101.8016251319
 20
225.84256469709999
 30
0.0
 40
0.299999935329538
 50
89.999885705099999
 51
270.00011429490002
  0
LINE
  5
A3
  8
0
  6
CONTINUOUS
 62
     7
 10
101.80162489999999
 20
226.14256481050001
 30
0.0
 11
101.80162489999999
 21
227.0425651443
 31
0.0
  0
ARC
  5
A4
  8
0
  6
CONTINUOUS
 62
     7
 10
101.8016252005
 20
227.3425645872
 30
0.0
 40
0.3000000452255294
 50
89.999898821200006
 51
270.00010117879998
  0
LINE
  5
A5
  8
0
  6
CONTINUOUS
 62
     7
 10
101.80162489999999
 20
227.64256412509999
 30
0.0
 11
101.80162489999999
 21
228.54256445889999
 31
0.0
  0
ARC
  5
A6
  8
0
  6
CONTINUOUS
 62
     7
 10
101.8016252111
 20
228.84256447729999
 30
0.0
 40
0.3000001551211202
 50
89.999900833300003
 51
270.00009916670001
  0
LINE
  5
A7
  8
0
  6
CONTINUOUS
 62
     7
 10
101.80162489999999
 20
229.1425653023
 30
0.0
 11
101.80162489999999
 21
231.3313503039
 31
0.0
  0
LINE
  5
A8
  8
0
  6
CONTINUOUS
 62
     7
 10
101.80162489999999
 20
231.3313503039
 30
0.0
 11
101.9644796907
 21
231.9320794416
 31
0.0
  0
LINE
  5
A9
  8
0
  6
CONTINUOUS
 62
     7
 10
101.9644796907
 20
231.9320794416
 30
0.0
 11
102.9599983304
 21
232.00169394139999
 31
0.0
  0
LINE
  5
AA
  8
0
  6
CONTINUOUS
 62
     7
 10
102.9599983304
 20
232.00169394139999
 30
0.0
 11
103.0181966781
 21
231.9860998762
 31
0.0
  0
ARC
  5
AB
  8
0
  6
CONTINUOUS
 62
     7
 10
103.51510022239999
 20
231.93053428170001
 30
0.0
 40
0.4999999999999629
 50
173.6195602496
 51
185.47954051599999
  0
ARC
  5
AC
  8
0
  6
CONTINUOUS
 62
     7
 10
103.79968157419999
 20
232.99260634539999
 30
0.0
 40
0.4999999999997315
 50
144.520459485
 51
156.3804397513
  0
LINE
  5
AD
  8
0
  6
CONTINUOUS
 62
     7
 10
103.3415686398
 20
233.1929374707
 30
0.0
 11
103.2833702921
 21
233.20853153589999
 31
0.0
  0
LINE
  5
AE
  8
0
  6
CONTINUOUS
 62
     7
 10
103.2833702921
 20
233.20853153589999
 30
0.0
 11
102.45443918399999
 21
233.76765104360001
 31
0.0
  0
LINE
  5
AF
  8
0
  6
CONTINUOUS
 62
     7
 10
102.45443918399999
 20
233.76765104360001
 30
0.0
 11
102.7647838055
 21
234.92586987440001
 31
0.0
  0
LINE
  5
B0
  8
0
  6
CONTINUOUS
 62
     7
 10
102.7647838055
 20
234.92586987440001
 30
0.0
 11
103.76221724440001
 21
234.99561848459999
 31
0.0
  0
LINE
  5
B1
  8
0
  6
CONTINUOUS
 62
     7
 10
103.76221724440001
 20
234.99561848459999
 30
0.0
 11
103.82041745470001
 21
234.98002441950001
 31
0.0
  0
ARC
  5
B2
  8
0
  6
CONTINUOUS
 62
     7
 10
104.3173196644
 20
234.92445799789999
 30
0.0
 40
0.4999999999999363
 50
173.61956024880001
 51
185.4795405152
  0
ARC
  5
B3
  8
0
  6
CONTINUOUS
 62
     7
 10
104.6019010135
 20
235.98653005169999
 30
0.0
 40
0.5000000000001302
 50
144.52045948380001
 51
156.3804397502
  0
LINE
  5
B4
  8
0
  6
CONTINUOUS
 62
     7
 10
104.1437875538
 20
236.18686201400001
 30
0.0
 11
104.0855892061
 21
236.2024560792
 31
0.0
  0
LINE
  5
B5
  8
0
  6
CONTINUOUS
 62
     7
 10
104.0855892061
 20
236.2024560792
 30
0.0
 11
103.256658098
 21
236.76157744950001
 31
0.0
  0
LINE
  5
B6
  8
0
  6
CONTINUOUS
 62
     7
 10
103.256658098
 20
236.76157744950001
 30
0.0
 11
103.4175980895
 21
237.36217247670001
 31
0.0
  0
LINE
  5
B7
  8
0
  6
CONTINUOUS
 62
     7
 10
105.8358442097
 20
237.36217247670001
 30
0.0
 11
103.4175980895
 21
237.36217247670001
 31
0.0
  0
LINE
  5
B8
  8
0
  6
CONTINUOUS
 62
     7
 10
105.9358440398
 20
237.26217078389999
 30
0.0
 11
105.8358442097
 21
237.36217247670001
 31
0.0
  0
LINE
  5
B9
  8
0
  6
CONTINUOUS
 62
     7
 10
105.9358440398
 20
237.26217078389999
 30
0.0
 11
109.7358450352
 21
237.26217078389999
 31
0.0
  0
LINE
  5
BA
  8
0
  6
CONTINUOUS
 62
     7
 10
109.8358448653
 20
237.36217247670001
 30
0.0
 11
109.7358450352
 21
237.26217078389999
 31
0.0
  0
LINE
  5
BB
  8
0
  6
CONTINUOUS
 62
     7
 10
117.7047457605
 20
237.36217247670001
 30
0.0
 11
109.8358448653
 21
237.36217247670001
 31
0.0
  0
LINE
  5
BC
  8
0
  6
CONTINUOUS
 62
     7
 10
117.7047457605
 20
237.36217247670001
 30
0.0
 11
117.86562800990001
 21
236.76178979100001
 31
0.0
  0
LINE
  5
BD
  8
0
  6
CONTINUOUS
 62
     7
 10
117.86562800990001
 20
236.76178979100001
 30
0.0
 11
117.0366969018
 21
236.20266842070001
 31
0.0
  0
LINE
  5
BE
  8
0
  6
CONTINUOUS
 62
     7
 10
117.0366969018
 20
236.20266842070001
 30
0.0
 11
116.9784985541
 21
236.18707435549999
 31
0.0
  0
ARC
  5
BF
  8
0
  6
CONTINUOUS
 62
     7
 10
116.52038538719999
 20
235.98674203940001
 30
0.0
 40
0.5000000000001834
 50
23.619560249799999
 51
35.47950078480001
  0
ARC
  5
C0
  8
0
  6
CONTINUOUS
 62
     7
 10
116.8049667363
 20
234.92466998559999
 30
0.0
 40
0.5000000000001542
 50
354.5204006184
 51
6.3804397511999991
  0
LINE
  5
C1
  8
0
  6
CONTINUOUS
 62
     7
 10
117.3018695845
 20
234.9802330357
 30
0.0
 11
117.3600688635
 21
234.99583082620001
 31
0.0
  0
LINE
  5
C2
  8
0
  6
CONTINUOUS
 62
     7
 10
117.3600688635
 20
234.99583082620001
 30
0.0
 11
118.35750230239999
 21
234.92608221590001
 31
0.0
  0
LINE
  5
C3
  8
0
  6
CONTINUOUS
 62
     7
 10
118.35750230239999
 20
234.92608221590001
 30
0.0
 11
118.667846924
 21
233.76786338509999
 31
0.0
  0
LINE
  5
C4
  8
0
  6
CONTINUOUS
 62
     7
 10
118.667846924
 20
233.76786338509999
 30
0.0
 11
117.83891581579999
 21
233.2087438774
 31
0.0
  0
LINE
  5
C5
  8
0
  6
CONTINUOUS
 62
     7
 10
117.83891581579999
 20
233.2087438774
 30
0.0
 11
117.7807174682
 21
233.19314981229999
 31
0.0
  0
ARC
  5
C6
  8
0
  6
CONTINUOUS
 62
     7
 10
117.3226050319
 20
232.99281857029999
 30
0.0
 40
0.4999997372759422
 50
23.619568996200002
 51
35.479563049500001
  0
ARC
  5
C7
  8
0
  6
CONTINUOUS
 62
     7
 10
117.6071868639
 20
231.9307431421
 30
0.0
 40
0.5000003338547781
 50
354.52094347010001
 51
6.3808840746999991
  0
LINE
  5
C8
  8
0
  6
CONTINUOUS
 62
     7
 10
119.1275905876
 20
228.46606376
 30
0.0
 11
119.1144673212
 21
228.3160630834
 31
0.0
  0
LINE
  5
C9
  8
0
  6
CONTINUOUS
 62
     7
 10
116.44039154639999
 20
212.3240595904
 30
0.0
 11
118.0430226087
 21
213.92669065269999
 31
0.0
  0
LINE
  5
CA
  8
0
  6
CONTINUOUS
 62
     7
 10
117.2311598494
 20
234.8577603919
 30
0.0
 11
117.3026816978
 21
234.87692328520001
 31
0.0
  0
LINE
  5
CB
  8
0
  6
CONTINUOUS
 62
     7
 10
116.8560240476
 20
236.2577840907
 30
0.0
 11
117.2311598494
 21
234.8577603919
 31
0.0
  0
LINE
  5
CC
  8
0
  6
CONTINUOUS
 62
     7
 10
116.92754682739999
 20
236.27694698400001
 30
0.0
 11
116.8560240476
 21
236.2577840907
 31
0.0
  0
ARC
  5
CD
  8
0
  6
CONTINUOUS
 62
     7
 10
115.94041635569999
 20
212.31905918870001
 30
0.0
 40
0.500000000000012
 50
351.86989764579999
 51
0.5729874590000003
  0
LINE
  5
CE
  8
0
  6
CONTINUOUS
 62
     7
 10
104.26626206029999
 20
236.25757174910001
 30
0.0
 11
104.1947402119
 21
236.27673464239999
 31
0.0
  0
LINE
  5
CF
  8
0
  6
CONTINUOUS
 62
     7
 10
103.8911271899
 20
234.85754805030001
 30
0.0
 11
104.26626206029999
 21
236.25757174910001
 31
0.0
  0
LINE
  5
D0
  8
0
  6
CONTINUOUS
 62
     7
 10
103.81960534149999
 20
234.87671466890001
 30
0.0
 11
103.8911271899
 21
234.85754805030001
 31
0.0
  0
LINE
  5
D1
  8
0
  6
CONTINUOUS
 62
     7
 10
103.4640431462999
 20
233.26364720590001
 30
0.0
 11
103.3925194352
 21
233.28281196180001
 31
0.0
  0
LINE
  5
D2
  8
0
  6
CONTINUOUS
 62
     7
 10
103.0889082759
 20
231.8636253697
 30
0.0
 11
103.4640431462999
 21
233.26364720590001
 31
0.0
  0
LINE
  5
D3
  8
0
  6
CONTINUOUS
 62
     7
 10
103.0173845648
 20
231.88278826300001
 30
0.0
 11
103.0889082759
 21
231.8636253697
 31
0.0
  0
ARC
  5
D4
  8
0
  6
CONTINUOUS
 62
     7
 10
114.4568150372
 20
211.5425646514
 30
0.0
 40
0.899999999999977
 50
270.0
 51
315.0
  0
LINE
  5
D5
  8
0
  6
CONTINUOUS
 62
     7
 10
118.03337876339999
 20
231.86383771120001
 30
0.0
 11
118.10490247449999
 21
231.88300246719999
 31
0.0
  0
LINE
  5
D6
  8
0
  6
CONTINUOUS
 62
     7
 10
117.6582429617
 20
233.26385954739999
 30
0.0
 11
118.03337876339999
 21
231.86383771120001
 31
0.0
  0
LINE
  5
D7
  8
0
  6
CONTINUOUS
 62
     7
 10
117.7297657414
 20
233.28302430330001
 30
0.0
 11
117.6582429617
 21
233.26385954739999
 31
0.0
  0
LINE
  5
D8
  8
0
  6
CONTINUOUS
 62
     7
 10
114.4568150922
 20
210.64256506390001
 30
0.0
 11
104.96449135829999
 21
210.64256506390001
 31
0.0
  0
LINE
  5
D9
  8
0
  6
CONTINUOUS
 62
     7
 10
111.3144908159
 20
210.54256476809999
 30
0.0
 11
112.01449055809999
 21
210.54256476809999
 31
0.0
  0
LINE
  5
DA
  8
0
  6
CONTINUOUS
 62
     7
 10
112.01449055809999
 20
206.6140673344
 30
0.0
 11
112.01449055809999
 21
210.54256476809999
 31
0.0
  0
LINE
  5
DB
  8
0
  6
CONTINUOUS
 62
     7
 10
111.964490643
 20
206.04256472899999
 30
0.0
 11
112.01449055809999
 21
206.6140673344
 31
0.0
  0
LINE
  5
DC
  8
0
  6
CONTINUOUS
 62
     7
 10
111.964490643
 20
206.04256472899999
 30
0.0
 11
111.964490643
 21
196.61871020099991
 31
0.0
  0
LINE
  5
DD
  8
0
  6
CONTINUOUS
 62
     7
 10
111.964490643
 20
196.61871020099991
 30
0.0
 11
111.66449115269999
 21
195.46157729230001
 31
0.0
  0
LINE
  5
DE
  8
0
  6
CONTINUOUS
 62
     7
 10
111.66449115269999
 20
195.46157729230001
 30
0.0
 11
104.6644900053
 21
195.46157729230001
 31
0.0
  0
LINE
  5
DF
  8
0
  6
CONTINUOUS
 62
     7
 10
104.6644900053
 20
195.46157729230001
 30
0.0
 11
104.3644905149
 21
196.61871020099991
 31
0.0
  0
LINE
  5
E0
  8
0
  6
CONTINUOUS
 62
     7
 10
104.3644905149
 20
196.61871020099991
 30
0.0
 11
104.3644905149
 21
206.04256472899999
 31
0.0
  0
LINE
  5
E1
  8
0
  6
CONTINUOUS
 62
     7
 10
104.31449153120001
 20
206.6140673344
 30
0.0
 11
104.3644905149
 21
206.04256472899999
 31
0.0
  0
LINE
  5
E2
  8
0
  6
CONTINUOUS
 62
     7
 10
104.31449153120001
 20
210.54256476809999
 30
0.0
 11
104.31449153120001
 21
206.6140673344
 31
0.0
  0
LINE
  5
E3
  8
0
  6
CONTINUOUS
 62
     7
 10
104.96449135829999
 20
210.54256476809999
 30
0.0
 11
105.01449220470001
 21
210.54256476809999
 31
0.0
  0
LINE
  5
E4
  8
0
  6
CONTINUOUS
 62
     7
 10
105.01449220470001
 20
210.54256476809999
 30
0.0
 11
105.01449220470001
 21
210.64256506390001
 31
0.0
  0
ARC
  5
E5
  8
0
  6
CONTINUOUS
 62
     7
 10
114.4568150372
 20
211.54256457619999
 30
0.0
 40
0.9499999999999886
 50
270.0
 51
315.0
  0
LINE
  5
E6
  8
0
  6
CONTINUOUS
 62
     7
 10
119.2706612929
 20
228.4160629136
 30
0.0
 11
119.2706612929
 21
216.6490517778
 31
0.0
  0
ARC
  5
E7
  8
0
  6
CONTINUOUS
 62
     7
 10
115.3206615007
 20
216.6490517268
 30
0.0
 40
3.9500000000000788
 50
315.0
 51
0.0
  0
LINE
  5
E8
  8
0
  6
CONTINUOUS
 62
     7
 10
114.4568150922
 20
210.59256421750001
 30
0.0
 11
111.3144908159
 21
210.59256421750001
 31
0.0
  0
LINE
  5
E9
  8
0
  6
CONTINUOUS
 62
     7
 10
119.1232161655
 20
228.4160629136
 30
0.0
 11
119.2706612929
 21
228.4160629136
 31
0.0
  0
LINE
  5
EA
  8
0
  6
CONTINUOUS
 62
     7
 10
118.1137332751
 20
213.8559799862
 30
0.0
 11
115.12856688940001
 21
210.87081266909999
 31
0.0
  0
LINE
  5
EB
  8
0
  6
CONTINUOUS
 62
     7
 10
111.3144908159
 20
210.59256421750001
 30
0.0
 11
111.3144908159
 21
210.54256476809999
 31
0.0
  0
LINE
  5
EC
  8
0
  6
CONTINUOUS
 62
     7
 10
107.6358448773
 20
237.26217078389999
 30
0.0
 11
107.6358448773
 21
237.36217247670001
 31
0.0
  0
LINE
  5
ED
  8
0
  6
CONTINUOUS
 62
     7
 10
107.6358448773
 20
237.36217247670001
 30
0.0
 11
105.8358442097
 21
237.36217247670001
 31
0.0
  0
LINE
  5
EE
  8
0
  6
CONTINUOUS
 62
     7
 10
108.0358441978
 20
237.26217078389999
 30
0.0
 11
108.0358441978
 21
237.36217247670001
 31
0.0
  0
LINE
  5
EF
  8
0
  6
CONTINUOUS
 62
     7
 10
109.8358448653
 20
237.36217247670001
 30
0.0
 11
108.0358441978
 21
237.36217247670001
 31
0.0
  0
ARC
  5
F0
  8
0
  6
CONTINUOUS
 62
     7
 10
115.94041635569999
 20
212.31905918870001
 30
0.0
 40
0.5000000000000342
 50
315.0
 51
340.84191877130002
  0
LINE
  5
F1
  8
0
  6
CONTINUOUS
 62
     7
 10
115.1639217569
 20
210.8354578016
 30
0.0
 11
116.2939699425
 21
211.96550598709999
 31
0.0
  0
ARC
  5
F2
  8
0
  6
CONTINUOUS
 62
     7
 10
114.4568150372
 20
211.5425646514
 30
0.0
 40
0.9999999999999715
 50
270.0
 51
315.0
  0
LINE
  5
F3
  8
0
  6
CONTINUOUS
 62
     7
 10
112.01449055809999
 20
210.54256476809999
 30
0.0
 11
114.4568150922
 21
210.54256476809999
 31
0.0
  0
LINE
  5
F4
  8
0
  6
CONTINUOUS
 62
     7
 10
102.7016252338
 20
209.34256447830001
 30
0.0
 11
101.9016265928
 21
209.34256447830001
 31
0.0
  0
LINE
  5
F5
  8
0
  6
CONTINUOUS
 62
     7
 10
101.9016265928
 20
209.34256447830001
 30
0.0
 11
101.9016265928
 21
209.54256460420001
 31
0.0
  0
LINE
  5
F6
  8
0
  6
CONTINUOUS
 62
     7
 10
101.9016265928
 20
209.54256460420001
 30
0.0
 11
102.7016252338
 21
209.54256460420001
 31
0.0
  0
LINE
  5
F7
  8
0
  6
CONTINUOUS
 62
     7
 10
102.7016252338
 20
209.34256447830001
 30
0.0
 11
102.7016252338
 21
209.54256460420001
 31
0.0
  0
ARC
  5
F8
  8
0
  6
CONTINUOUS
 62
     7
 10
101.9016257303
 20
209.34256465140001
 30
0.0
 40
0.2000000000000171
 50
90.0
 51
180.0
  0
LINE
  5
F9
  8
0
  6
CONTINUOUS
 62
     7
 10
101.9016265928
 20
209.34256447830001
 30
0.0
 11
101.7016250699
 21
209.34256447830001
 31
0.0
  0
LINE
  5
FA
  8
0
  6
CONTINUOUS
 62
     7
 10
101.9016265928
 20
209.34256447830001
 30
0.0
 11
101.9016265928
 21
202.04256465540001
 31
0.0
  0
LINE
  5
FB
  8
0
  6
CONTINUOUS
 62
     7
 10
101.7016250699
 20
202.04256465540001
 30
0.0
 11
101.9016265928
 21
202.04256465540001
 31
0.0
  0
LINE
  5
FC
  8
0
  6
CONTINUOUS
 62
     7
 10
101.7016250699
 20
202.04256465540001
 30
0.0
 11
101.7016250699
 21
209.34256447830001
 31
0.0
  0
ARC
  5
FD
  8
0
  6
CONTINUOUS
 62
     7
 10
102.70162573029999
 20
209.34256465140001
 30
0.0
 40
0.2000000000000171
 50
0.0
 51
90.0
  0
LINE
  5
FE
  8
0
  6
CONTINUOUS
 62
     7
 10
102.90162489399999
 20
209.34256447830001
 30
0.0
 11
102.7016252338
 21
209.34256447830001
 31
0.0
  0
LINE
  5
FF
  8
0
  6
CONTINUOUS
 62
     7
 10
102.7016252338
 20
202.04256465540001
 30
0.0
 11
102.7016252338
 21
209.34256447830001
 31
0.0
  0
LINE
  5
100
  8
0
  6
CONTINUOUS
 62
     7
 10
101.9016265928
 20
202.04256465540001
 30
0.0
 11
102.7016252338
 21
202.04256465540001
 31
0.0
  0
ARC
  5
101
  8
0
  6
CONTINUOUS
 62
     7
 10
101.9016257303
 20
202.0425646514
 30
0.0
 40
0.2000000000000171
 50
180.0
 51
270.0
  0
LINE
  5
102
  8
0
  6
CONTINUOUS
 62
     7
 10
101.9016265928
 20
201.84256464590001
 30
0.0
 11
101.9016265928
 21
202.04256465540001
 31
0.0
  0
LINE
  5
103
  8
0
  6
CONTINUOUS
 62
     7
 10
102.7016252338
 20
201.84256464590001
 30
0.0
 11
102.7016252338
 21
202.04256465540001
 31
0.0
  0
LINE
  5
104
  8
0
  6
CONTINUOUS
 62
     7
 10
102.7016252338
 20
202.04256465540001
 30
0.0
 11
102.90162489399999
 21
202.04256465540001
 31
0.0
  0
ARC
  5
105
  8
0
  6
CONTINUOUS
 62
     7
 10
102.70162573029999
 20
202.0425646514
 30
0.0
 40
0.2000000000000171
 50
270.0
 51
0.0
  0
LINE
  5
106
  8
0
  6
CONTINUOUS
 62
     7
 10
102.90162489399999
 20
209.34256447830001
 30
0.0
 11
102.90162489399999
 21
202.04256465540001
 31
0.0
  0
LINE
  5
107
  8
0
  6
CONTINUOUS
 62
     7
 10
102.7016252338
 20
201.84256464590001
 30
0.0
 11
101.9016265928
 21
201.84256464590001
 31
0.0
  0
LINE
  5
108
  8
0
  6
CONTINUOUS
 62
     7
 10
102.6016254037
 20
210.24256481200001
 30
0.0
 11
102.0016264229
 21
210.24256481200001
 31
0.0
  0
LINE
  5
109
  8
0
  6
CONTINUOUS
 62
     7
 10
102.0016264229
 20
210.24256481200001
 30
0.0
 11
102.0016264229
 21
210.54256476809999
 31
0.0
  0
LINE
  5
10A
  8
0
  6
CONTINUOUS
 62
     7
 10
102.6016254037
 20
210.54256476809999
 30
0.0
 11
102.6016254037
 21
210.24256481200001
 31
0.0
  0
ARC
  5
10B
  8
0
  6
CONTINUOUS
 62
     7
 10
104.296632317
 20
195.76157750819999
 30
0.0
 40
0.3000000000000114
 50
194.53471477549999
 51
270.0
  0
LINE
  5
10C
  8
0
  6
CONTINUOUS
 62
     7
 10
103.8740914374
 20
196.1959665862
 30
0.0
 11
104.0062330722
 21
195.6862877344
 31
0.0
  0
ARC
  5
10D
  8
0
  6
CONTINUOUS
 62
     7
 10
104.1644908192
 20
196.2712566333
 30
0.0
 40
0.2999999999999972
 50
180.0
 51
194.53471477549999
  0
LINE
  5
10E
  8
0
  6
CONTINUOUS
 62
     7
 10
103.86449136429999
 20
198.8553202466
 30
0.0
 11
103.86449136429999
 21
196.2712565658
 31
0.0
  0
ARC
  5
10F
  8
0
  6
CONTINUOUS
 62
     7
 10
103.5644908192
 20
198.8553203546
 30
0.0
 40
0.3000000000000222
 50
0.0
 51
52.892974240500003
  0
ARC
  5
110
  8
0
  6
CONTINUOUS
 62
     7
 10
104.4769908191
 20
200.06155416280001
 30
0.0
 40
1.2125000000011861
 50
120.1870677931
 51
232.8929742405
  0
ARC
  5
111
  8
0
  6
CONTINUOUS
 62
     7
 10
103.3644908192
 20
201.9740133128
 30
0.0
 40
1.0
 50
300.18706779310003
 51
0.0
  0
LINE
  5
112
  8
0
  6
CONTINUOUS
 62
     7
 10
104.2966324895
 20
195.46157729230001
 30
0.0
 11
104.6644900053
 21
195.46157729230001
 31
0.0
  0
LINE
  5
113
  8
0
  6
CONTINUOUS
 62
     7
 10
102.6016254037
 20
209.54256460420001
 30
0.0
 11
102.6016254037
 21
210.24256481200001
 31
0.0
  0
LINE
  5
114
  8
0
  6
CONTINUOUS
 62
     7
 10
102.0016264229
 20
210.24256481200001
 30
0.0
 11
102.0016264229
 21
209.54256460420001
 31
0.0
  0
LINE
  5
115
  8
0
  6
CONTINUOUS
 62
     7
 10
102.90162489399999
 20
203.7615779775
 30
0.0
 11
104.0644910245
 21
203.7615779775
 31
0.0
  0
ARC
  5
116
  8
0
  6
CONTINUOUS
 62
     7
 10
104.0644908192
 20
202.66157792519999
 30
0.0
 40
0.3000000000000114
 50
0.0
 51
90.0
  0
LINE
  5
117
  8
0
  6
CONTINUOUS
 62
     7
 10
102.90162489399999
 20
202.961577925
 30
0.0
 11
104.0644910245
 21
202.961577925
 31
0.0
  0
ARC
  5
118
  8
0
  6
CONTINUOUS
 62
     7
 10
104.0644908192
 20
204.0615779252
 30
0.0
 40
0.3000000000000114
 50
270.0
 51
0.0
  0
LINE
  5
119
  8
0
  6
CONTINUOUS
 62
     7
 10
119.3206612079
 20
229.27327083770001
 30
0.0
 11
119.3206612079
 21
231.05302455250001
 31
0.0
  0
ARC
  5
11A
  8
0
  6
CONTINUOUS
 62
     7
 10
115.3206615007
 20
216.649051802
 30
0.0
 40
4.0000000000000844
 50
315.0
 51
0.0
  0
LINE
  5
11B
  8
0
  6
CONTINUOUS
 62
     7
 10
118.149089074
 20
213.82062511859999
 30
0.0
 11
116.2939699425
 21
211.96550598709999
 31
0.0
  0
LINE
  5
11C
  8
0
  6
CONTINUOUS
 62
     7
 10
119.3206612079
 20
228.46606376
 30
0.0
 11
119.3206612079
 21
216.6490517778
 31
0.0
  0
LINE
  5
11D
  8
0
  6
CONTINUOUS
 62
     7
 10
116.9784985541
 20
236.18707435549999
 30
0.0
 11
117.3018695845
 21
234.9802330357
 31
0.0
  0
LINE
  5
11E
  8
0
  6
CONTINUOUS
 62
     7
 10
117.7807174682
 20
233.19314981229999
 30
0.0
 11
118.1040894299
 21
231.9863122177
 31
0.0
  0
LINE
  5
11F
  8
0
  6
CONTINUOUS
 62
     7
 10
103.82041745470001
 20
234.98002441950001
 30
0.0
 11
104.1437875538
 21
236.18686201400001
 31
0.0
  0
LINE
  5
120
  8
0
  6
CONTINUOUS
 62
     7
 10
103.0181966781
 20
231.9860998762
 30
0.0
 11
103.3415686398
 21
233.1929374707
 31
0.0
  0
LINE
  5
121
  8
0
  6
CONTINUOUS
 62
     7
 10
108.0358441978
 20
237.36217247670001
 30
0.0
 11
107.6358448773
 21
237.36217247670001
 31
0.0
  0
LINE
  5
122
  8
0
  6
CONTINUOUS
 62
     7
 10
101.5016254096
 20
177.88998912619999
 30
0.0
 11
101.5016254096
 21
172.88998900510001
 31
0.0
  0
LINE
  5
123
  8
0
  6
CONTINUOUS
 62
     7
 10
117.86562800990001
 20
177.88998912619999
 30
0.0
 11
117.86562800990001
 21
172.88998900510001
 31
0.0
  0
LINE
  5
124
  8
0
  6
CONTINUOUS
 62
     7
 10
117.7047457605
 20
172.88998900510001
 30
0.0
 11
117.86562800990001
 21
172.88998900510001
 31
0.0
  0
LINE
  5
125
  8
0
  6
CONTINUOUS
 62
     7
 10
117.7047457605
 20
177.88998912619999
 30
0.0
 11
117.7047457605
 21
172.88998900510001
 31
0.0
  0
LINE
  5
126
  8
0
  6
CONTINUOUS
 62
     7
 10
117.7047457605
 20
177.88998912619999
 30
0.0
 11
117.86562800990001
 21
177.88998912619999
 31
0.0
  0
LINE
  5
127
  8
0
  6
CONTINUOUS
 62
     7
 10
117.7047457605
 20
172.88998900510001
 30
0.0
 11
109.8358448653
 21
172.88998900510001
 31
0.0
  0
LINE
  5
128
  8
0
  6
CONTINUOUS
 62
     7
 10
109.8358448653
 20
173.3337497764
 30
0.0
 11
109.8358448653
 21
172.88998900510001
 31
0.0
  0
ARC
  5
129
  8
0
  6
CONTINUOUS
 62
     7
 10
108.0358444085
 20
175.13998901100001
 30
0.0
 40
2.550000000000038
 50
314.90087215599999
 51
90.0
  0
LINE
  5
12A
  8
0
  6
CONTINUOUS
 62
     7
 10
105.8358442097
 20
172.88998900510001
 30
0.0
 11
105.8358442097
 21
173.3337497764
 31
0.0
  0
LINE
  5
12B
  8
0
  6
CONTINUOUS
 62
     7
 10
105.8358442097
 20
172.88998900510001
 30
0.0
 11
103.4175980895
 21
172.88998900510001
 31
0.0
  0
LINE
  5
12C
  8
0
  6
CONTINUOUS
 62
     7
 10
103.4175980895
 20
177.88998912619999
 30
0.0
 11
103.4175980895
 21
172.88998900510001
 31
0.0
  0
LINE
  5
12D
  8
0
  6
CONTINUOUS
 62
     7
 10
111.5358438401
 20
175.14261695499999
 30
0.0
 11
111.0108442663
 21
174.83950806959999
 31
0.0
  0
ARC
  5
12E
  8
0
  6
CONTINUOUS
 62
     7
 10
111.21084440849999
 20
174.49309790230001
 30
0.0
 40
0.4000000000000174
 50
120.0
 51
180.0
  0
LINE
  5
12F
  8
0
  6
CONTINUOUS
 62
     7
 10
110.81084460610001
 20
174.4930978941
 30
0.0
 11
110.81084460610001
 21
173.88688006500001
 31
0.0
  0
ARC
  5
130
  8
0
  6
CONTINUOUS
 62
     7
 10
111.21084440849999
 20
173.88688011970001
 30
0.0
 40
0.3999999999999927
 50
180.0
 51
240.0
  0
LINE
  5
131
  8
0
  6
CONTINUOUS
 62
     7
 10
111.0108442663
 20
173.54046997680001
 30
0.0
 11
111.5358438401
 21
173.23736103319999
 31
0.0
  0
ARC
  5
132
  8
0
  6
CONTINUOUS
 62
     7
 10
111.7358444085
 20
173.58377122830001
 30
0.0
 40
0.4000000000000317
 50
240.0
 51
300.0
  0
LINE
  5
133
  8
0
  6
CONTINUOUS
 62
     7
 10
111.935844092
 20
173.23736103319999
 30
0.0
 11
112.46084459710001
 21
173.54046997680001
 31
0.0
  0
ARC
  5
134
  8
0
  6
CONTINUOUS
 62
     7
 10
112.26084440850001
 20
173.88688011970001
 30
0.0
 40
0.4000000000000057
 50
300.0
 51
0.0
  0
LINE
  5
135
  8
0
  6
CONTINUOUS
 62
     7
 10
112.6608442574
 20
173.88688006500001
 30
0.0
 11
112.6608442574
 21
174.4930978941
 31
0.0
  0
ARC
  5
136
  8
0
  6
CONTINUOUS
 62
     7
 10
112.26084440850001
 20
174.49309790230001
 30
0.0
 40
0.4000000000000174
 50
0.0
 51
60.0
  0
LINE
  5
137
  8
0
  6
CONTINUOUS
 62
     7
 10
112.46084459710001
 20
174.83950806959999
 30
0.0
 11
111.935844092
 21
175.14261695499999
 31
0.0
  0
ARC
  5
138
  8
0
  6
CONTINUOUS
 62
     7
 10
111.7358444085
 20
174.79620679359999
 30
0.0
 40
0.4000000000000071
 50
60.0
 51
120.0
  0
LINE
  5
139
  8
0
  6
CONTINUOUS
 62
     7
 10
114.98584449880001
 20
173.48998903360001
 30
0.0
 11
114.98584449880001
 21
173.63998901159999
 31
0.0
  0
LINE
  5
13A
  8
0
  6
CONTINUOUS
 62
     7
 10
115.58584441089999
 20
173.63998901159999
 30
0.0
 11
114.98584449880001
 21
173.63998901159999
 31
0.0
  0
LINE
  5
13B
  8
0
  6
CONTINUOUS
 62
     7
 10
114.98584449880001
 20
177.2399890662
 30
0.0
 11
114.98584449880001
 21
177.38998904420001
 31
0.0
  0
LINE
  5
13C
  8
0
  6
CONTINUOUS
 62
     7
 10
112.38584425889999
 20
177.2399890662
 30
0.0
 11
112.38584425889999
 21
175.63998899020001
 31
0.0
  0
LINE
  5
13D
  8
0
  6
CONTINUOUS
 62
     7
 10
113.1858447625
 20
174.40998899580001
 30
0.0
 11
112.38584425889999
 21
175.63998899020001
 31
0.0
  0
LINE
  5
13E
  8
0
  6
CONTINUOUS
 62
     7
 10
113.1858447625
 20
173.63998901159999
 30
0.0
 11
113.1858447625
 21
174.40998899580001
 31
0.0
  0
LINE
  5
13F
  8
0
  6
CONTINUOUS
 62
     7
 10
113.48584425289999
 20
173.63998901159999
 30
0.0
 11
113.1858447625
 21
173.63998901159999
 31
0.0
  0
LINE
  5
140
  8
0
  6
CONTINUOUS
 62
     7
 10
113.48584425289999
 20
173.63998901159999
 30
0.0
 11
113.48584425289999
 21
173.48998903360001
 31
0.0
  0
LINE
  5
141
  8
0
  6
CONTINUOUS
 62
     7
 10
113.48584425289999
 20
173.48998903360001
 30
0.0
 11
114.98584449880001
 21
173.48998903360001
 31
0.0
  0
LINE
  5
142
  8
0
  6
CONTINUOUS
 62
     7
 10
113.48584425289999
 20
177.38998904420001
 30
0.0
 11
113.48584425289999
 21
177.2399890662
 31
0.0
  0
LINE
  5
143
  8
0
  6
CONTINUOUS
 62
     7
 10
103.4175980895
 20
177.88998912619999
 30
0.0
 11
117.7047457605
 21
177.88998912619999
 31
0.0
  0
LINE
  5
144
  8
0
  6
CONTINUOUS
 62
     7
 10
115.58584441089999
 20
177.2399890662
 30
0.0
 11
115.58584441089999
 21
173.63998901159999
 31
0.0
  0
LINE
  5
145
  8
0
  6
CONTINUOUS
 62
     7
 10
115.58584441089999
 20
177.2399890662
 30
0.0
 11
114.98584449880001
 21
177.2399890662
 31
0.0
  0
LINE
  5
146
  8
0
  6
CONTINUOUS
 62
     7
 10
114.98584449880001
 20
177.38998904420001
 30
0.0
 11
113.48584425289999
 21
177.38998904420001
 31
0.0
  0
ARC
  5
147
  8
0
  6
CONTINUOUS
 62
     7
 10
107.63584440850001
 20
175.13998901100001
 30
0.0
 40
2.550000000000038
 50
90.0
 51
225.09912784400001
  0
LINE
  5
148
  8
0
  6
CONTINUOUS
 62
     7
 10
108.0358441978
 20
177.68998900029999
 30
0.0
 11
107.6358448773
 21
177.68998900029999
 31
0.0
  0
LINE
  5
149
  8
0
  6
CONTINUOUS
 62
     7
 10
113.48584425289999
 20
177.2399890662
 30
0.0
 11
112.38584425889999
 21
177.2399890662
 31
0.0
  0
LINE
  5
14A
  8
0
  6
CONTINUOUS
 62
     7
 10
109.8358448653
 20
172.88998900510001
 30
0.0
 11
109.7358450352
 21
172.88998900510001
 31
0.0
  0
LINE
  5
14B
  8
0
  6
CONTINUOUS
 62
     7
 10
109.7358450352
 20
173.23933124609999
 30
0.0
 11
109.7358450352
 21
172.88998900510001
 31
0.0
  0
ARC
  5
14C
  8
0
  6
CONTINUOUS
 62
     7
 10
108.0358444085
 20
175.13998901100001
 30
0.0
 40
2.550000000000006
 50
311.81031489579999
 51
314.90087215599999
  0
LINE
  5
14D
  8
0
  6
CONTINUOUS
 62
     7
 10
105.9358440398
 20
172.88998900510001
 30
0.0
 11
105.9358440398
 21
173.23933124609999
 31
0.0
  0
LINE
  5
14E
  8
0
  6
CONTINUOUS
 62
     7
 10
105.9358440398
 20
172.88998900510001
 30
0.0
 11
105.8358442097
 21
172.88998900510001
 31
0.0
  0
ARC
  5
14F
  8
0
  6
CONTINUOUS
 62
     7
 10
107.63584440850001
 20
175.13998901100001
 30
0.0
 40
2.550000000000018
 50
225.09912784400001
 51
228.18968510420001
  0
LINE
  5
150
  8
0
  6
CONTINUOUS
 62
     7
 10
103.256658098
 20
177.88998912619999
 30
0.0
 11
103.256658098
 21
172.88998900510001
 31
0.0
  0
LINE
  5
151
  8
0
  6
CONTINUOUS
 62
     7
 10
103.256658098
 20
172.88998900510001
 30
0.0
 11
103.4175980895
 21
172.88998900510001
 31
0.0
  0
LINE
  5
152
  8
0
  6
CONTINUOUS
 62
     7
 10
103.256658098
 20
177.88998912619999
 30
0.0
 11
103.4175980895
 21
177.88998912619999
 31
0.0
  0
LINE
  5
153
  8
0
  6
CONTINUOUS
 62
     7
 10
117.6280140935
 20
177.88998912619999
 30
0.0
 11
117.6280140935
 21
178.0399891042
 31
0.0
  0
LINE
  5
154
  8
0
  6
CONTINUOUS
 62
     7
 10
117.6280140935
 20
178.0399891042
 30
0.0
 11
117.7505733504
 21
178.0399891042
 31
0.0
  0
LINE
  5
155
  8
0
  6
CONTINUOUS
 62
     7
 10
117.7505733504
 20
177.88998912619999
 30
0.0
 11
117.7505733504
 21
178.0399891042
 31
0.0
  0
LINE
  5
156
  8
0
  6
CONTINUOUS
 62
     7
 10
103.49432975640001
 20
177.88998912619999
 30
0.0
 11
103.49432975640001
 21
178.0399891042
 31
0.0
  0
LINE
  5
157
  8
0
  6
CONTINUOUS
 62
     7
 10
103.49432975640001
 20
178.0399891042
 30
0.0
 11
117.6280140935
 21
178.0399891042
 31
0.0
  0
LINE
  5
158
  8
0
  6
CONTINUOUS
 62
     7
 10
103.3717136889
 20
177.88998912619999
 30
0.0
 11
103.3717136889
 21
178.0399891042
 31
0.0
  0
LINE
  5
159
  8
0
  6
CONTINUOUS
 62
     7
 10
103.3717136889
 20
178.0399891042
 30
0.0
 11
103.49432975640001
 21
178.0399891042
 31
0.0
  0
LINE
  5
15A
  8
0
  6
CONTINUOUS
 62
     7
 10
105.9358440398
 20
172.88998900510001
 30
0.0
 11
109.7358450352
 21
172.88998900510001
 31
0.0
  0
LINE
  5
15B
  8
0
  6
CONTINUOUS
 62
     7
 10
118.35750230239999
 20
177.88998912619999
 30
0.0
 11
118.35750230239999
 21
172.88998900510001
 31
0.0
  0
LINE
  5
15C
  8
0
  6
CONTINUOUS
 62
     7
 10
117.86562800990001
 20
172.88998900510001
 30
0.0
 11
118.35750230239999
 21
172.88998900510001
 31
0.0
  0
LINE
  5
15D
  8
0
  6
CONTINUOUS
 62
     7
 10
117.86562800990001
 20
177.88998912619999
 30
0.0
 11
118.35750230239999
 21
177.88998912619999
 31
0.0
  0
LINE
  5
15E
  8
0
  6
CONTINUOUS
 62
     7
 10
102.7647838055
 20
177.88998912619999
 30
0.0
 11
102.7647838055
 21
172.88998900510001
 31
0.0
  0
LINE
  5
15F
  8
0
  6
CONTINUOUS
 62
     7
 10
102.7647838055
 20
172.88998900510001
 30
0.0
 11
103.256658098
 21
172.88998900510001
 31
0.0
  0
LINE
  5
160
  8
0
  6
CONTINUOUS
 62
     7
 10
102.7647838055
 20
177.88998912619999
 30
0.0
 11
103.256658098
 21
177.88998912619999
 31
0.0
  0
LINE
  5
161
  8
0
  6
CONTINUOUS
 62
     7
 10
118.667846924
 20
177.88998912619999
 30
0.0
 11
118.667846924
 21
172.88998900510001
 31
0.0
  0
LINE
  5
162
  8
0
  6
CONTINUOUS
 62
     7
 10
118.35750230239999
 20
172.88998900510001
 30
0.0
 11
118.667846924
 21
172.88998900510001
 31
0.0
  0
LINE
  5
163
  8
0
  6
CONTINUOUS
 62
     7
 10
118.35750230239999
 20
177.88998912619999
 30
0.0
 11
118.667846924
 21
177.88998912619999
 31
0.0
  0
LINE
  5
164
  8
0
  6
CONTINUOUS
 62
     7
 10
102.45443918399999
 20
177.88998912619999
 30
0.0
 11
102.45443918399999
 21
172.88998900510001
 31
0.0
  0
LINE
  5
165
  8
0
  6
CONTINUOUS
 62
     7
 10
102.45443918399999
 20
172.88998900510001
 30
0.0
 11
102.7647838055
 21
172.88998900510001
 31
0.0
  0
LINE
  5
166
  8
0
  6
CONTINUOUS
 62
     7
 10
102.45443918399999
 20
177.88998912619999
 30
0.0
 11
102.7647838055
 21
177.88998912619999
 31
0.0
  0
LINE
  5
167
  8
0
  6
CONTINUOUS
 62
     7
 10
118.279371789
 20
177.88998912619999
 30
0.0
 11
118.279371789
 21
178.0399891042
 31
0.0
  0
LINE
  5
168
  8
0
  6
CONTINUOUS
 62
     7
 10
117.7505733504
 20
178.0399891042
 30
0.0
 11
118.279371789
 21
178.0399891042
 31
0.0
  0
LINE
  5
169
  8
0
  6
CONTINUOUS
 62
     7
 10
102.8429143189
 20
177.88998912619999
 30
0.0
 11
102.8429143189
 21
178.0399891042
 31
0.0
  0
LINE
  5
16A
  8
0
  6
CONTINUOUS
 62
     7
 10
102.8429143189
 20
178.0399891042
 30
0.0
 11
103.3717136889
 21
178.0399891042
 31
0.0
  0
LINE
  5
16B
  8
0
  6
CONTINUOUS
 62
     7
 10
118.5527931957
 20
177.88998912619999
 30
0.0
 11
118.5527931957
 21
178.0399891042
 31
0.0
  0
LINE
  5
16C
  8
0
  6
CONTINUOUS
 62
     7
 10
118.279371789
 20
178.0399891042
 30
0.0
 11
118.5527931957
 21
178.0399891042
 31
0.0
  0
LINE
  5
16D
  8
0
  6
CONTINUOUS
 62
     7
 10
102.56949477480001
 20
177.88998912619999
 30
0.0
 11
102.56949477480001
 21
178.0399891042
 31
0.0
  0
LINE
  5
16E
  8
0
  6
CONTINUOUS
 62
     7
 10
102.56949477480001
 20
178.0399891042
 30
0.0
 11
102.8429143189
 21
178.0399891042
 31
0.0
  0
LINE
  5
16F
  8
0
  6
CONTINUOUS
 62
     7
 10
119.15780641720001
 20
177.88998912619999
 30
0.0
 11
119.15780641720001
 21
172.88998900510001
 31
0.0
  0
LINE
  5
170
  8
0
  6
CONTINUOUS
 62
     7
 10
118.667846924
 20
172.88998900510001
 30
0.0
 11
119.15780641720001
 21
172.88998900510001
 31
0.0
  0
LINE
  5
171
  8
0
  6
CONTINUOUS
 62
     7
 10
118.667846924
 20
177.88998912619999
 30
0.0
 11
119.15780641720001
 21
177.88998912619999
 31
0.0
  0
LINE
  5
172
  8
0
  6
CONTINUOUS
 62
     7
 10
101.9644796907
 20
177.88998912619999
 30
0.0
 11
101.9644796907
 21
172.88998900510001
 31
0.0
  0
LINE
  5
173
  8
0
  6
CONTINUOUS
 62
     7
 10
101.9644796907
 20
172.88998900510001
 30
0.0
 11
102.45443918399999
 21
172.88998900510001
 31
0.0
  0
LINE
  5
174
  8
0
  6
CONTINUOUS
 62
     7
 10
101.9644796907
 20
177.88998912619999
 30
0.0
 11
102.45443918399999
 21
177.88998912619999
 31
0.0
  0
LINE
  5
175
  8
0
  6
CONTINUOUS
 62
     7
 10
119.3206612079
 20
177.88998912619999
 30
0.0
 11
119.3206612079
 21
172.88998900510001
 31
0.0
  0
LINE
  5
176
  8
0
  6
CONTINUOUS
 62
     7
 10
119.15780641720001
 20
172.88998900510001
 30
0.0
 11
119.3206612079
 21
172.88998900510001
 31
0.0
  0
LINE
  5
177
  8
0
  6
CONTINUOUS
 62
     7
 10
119.15780641720001
 20
177.88998912619999
 30
0.0
 11
119.3206612079
 21
177.88998912619999
 31
0.0
  0
LINE
  5
178
  8
0
  6
CONTINUOUS
 62
     7
 10
101.80162489999999
 20
172.88998900510001
 30
0.0
 11
101.80162489999999
 21
177.88998912619999
 31
0.0
  0
LINE
  5
179
  8
0
  6
CONTINUOUS
 62
     7
 10
101.80162489999999
 20
172.88998900510001
 30
0.0
 11
101.9644796907
 21
172.88998900510001
 31
0.0
  0
LINE
  5
17A
  8
0
  6
CONTINUOUS
 62
     7
 10
101.80162489999999
 20
177.88998912619999
 30
0.0
 11
101.9644796907
 21
177.88998912619999
 31
0.0
  0
LINE
  5
17B
  8
0
  6
CONTINUOUS
 62
     7
 10
119.07989569590001
 20
177.88998912619999
 30
0.0
 11
119.07989569590001
 21
178.0399891042
 31
0.0
  0
LINE
  5
17C
  8
0
  6
CONTINUOUS
 62
     7
 10
118.5527931957
 20
178.0399891042
 30
0.0
 11
119.07989569590001
 21
178.0399891042
 31
0.0
  0
LINE
  5
17D
  8
0
  6
CONTINUOUS
 62
     7
 10
102.042390412
 20
177.88998912619999
 30
0.0
 11
102.042390412
 21
178.0399891042
 31
0.0
  0
LINE
  5
17E
  8
0
  6
CONTINUOUS
 62
     7
 10
102.042390412
 20
178.0399891042
 30
0.0
 11
102.56949477480001
 21
178.0399891042
 31
0.0
  0
LINE
  5
17F
  8
0
  6
CONTINUOUS
 62
     7
 10
119.2206613778
 20
177.88998912619999
 30
0.0
 11
119.2206613778
 21
178.0399891042
 31
0.0
  0
LINE
  5
180
  8
0
  6
CONTINUOUS
 62
     7
 10
119.07989569590001
 20
178.0399891042
 30
0.0
 11
119.2206613778
 21
178.0399891042
 31
0.0
  0
LINE
  5
181
  8
0
  6
CONTINUOUS
 62
     7
 10
101.9016265928
 20
177.88998912619999
 30
0.0
 11
101.9016265928
 21
178.0399891042
 31
0.0
  0
LINE
  5
182
  8
0
  6
CONTINUOUS
 62
     7
 10
101.9016265928
 20
178.0399891042
 30
0.0
 11
102.042390412
 21
178.0399891042
 31
0.0
  0
LINE
  5
183
  8
0
  6
CONTINUOUS
 62
     7
 10
101.80162489999999
 20
172.88998900510001
 30
0.0
 11
101.5016254096
 21
172.88998900510001
 31
0.0
  0
LINE
  5
184
  8
0
  6
CONTINUOUS
 62
     7
 10
101.80162489999999
 20
177.88998912619999
 30
0.0
 11
101.5016254096
 21
177.88998912619999
 31
0.0
  0
CIRCLE
  5
34C
  8
0
  6
DOT2
 62
     7
 10
114.2497085895797
 20
212.04256443554021
 30
0.0
 40
0.7814249005352885
  0
CIRCLE
  5
34D
  8
0
  6
DOT2
 62
     7
 10
112.0353221865867
 20
217.2834463779698
 30
0.0
 40
0.7814249005352904
  0
CIRCLE
  5
34E
  8
0
  6
DOT2
 62
     7
 10
117.5058447420268
 20
227.31606291685429
 30
0.0
 40
0.7814249005352867
  0
CIRCLE
  5
34F
  8
0
  6
DOT2
 62
     7
 10
104.10162606384119
 20
212.59315261003351
 30
0.0
 40
0.7814249005352849
  0
CIRCLE
  5
350
  8
0
  6
DOT2
 62
     7
 10
104.10162606384119
 20
224.16117345787751
 30
0.0
 40
0.7814249005352814
  0
LINE
  5
3E7
  8
0
  6
CONTINUOUS
 62
     7
 10
118.287269662678
 20
178.0399891262
 30
0.0
 11
118.287269662678
 21
179.4399891262
 31
0.0
  0
LINE
  5
3E8
  8
0
  6
CONTINUOUS
 62
     7
 10
116.7244198616075
 20
179.4399891262
 30
0.0
 11
116.7244198616075
 21
178.0399891262
 31
0.0
  0
LINE
  5
3E9
  8
0
  6
CONTINUOUS
 62
     7
 10
104.8830509844923
 20
178.0399891262
 30
0.0
 11
104.8830509844923
 21
179.4399891262
 31
0.0
  0
LINE
  5
3EA
  8
0
  6
CONTINUOUS
 62
     7
 10
103.3202011834218
 20
179.4399891262
 30
0.0
 11
103.3202011834218
 21
178.0399891262
 31
0.0
  0
LINE
  5
3EB
  8
0
  6
CONTINUOUS
 62
     7
 10
112.8167471072379
 20
178.0399891262
 30
0.0
 11
112.8167471072379
 21
179.4399891262
 31
0.0
  0
LINE
  5
3EC
  8
0
  6
CONTINUOUS
 62
     7
 10
111.2538973061673
 20
179.4399891262
 30
0.0
 11
111.2538973061673
 21
178.0399891262
 31
0.0
  0
LINE
  5
3ED
  8
0
  6
CONTINUOUS
 62
     7
 10
115.0311335102309
 20
178.0399891262
 30
0.0
 11
115.0311335102309
 21
179.4399891262
 31
0.0
  0
LINE
  5
3EE
  8
0
  6
CONTINUOUS
 62
     7
 10
113.4682837091604
 20
179.4399891262
 30
0.0
 11
113.4682837091604
 21
178.0399891262
 31
0.0
  0
LINE
  5
3EF
  8
0
  6
CONTINUOUS
 62
     7
 10
116.7244198616075
 20
179.4399891262
 30
0.0
 11
118.287269662678
 21
179.4399891262
 31
0.0
  0
LINE
  5
3F0
  8
0
  6
CONTINUOUS
 62
     7
 10
103.3202011834218
 20
179.4399891262
 30
0.0
 11
104.8830509844923
 21
179.4399891262
 31
0.0
  0
LINE
  5
3F1
  8
0
  6
CONTINUOUS
 62
     7
 10
111.2538973061673
 20
179.4399891262
 30
0.0
 11
112.8167471072379
 21
179.4399891262
 31
0.0
  0
LINE
  5
3F2
  8
0
  6
CONTINUOUS
 62
     7
 10
113.4682837091604
 20
179.4399891262
 30
0.0
 11
115.0311335102309
 21
179.4399891262
 31
0.0
  0
LINE
  5
54C
  8
0
  6
CONTINUOUS
 62
     7
 10
119.32066493320001
 20
228.46606748529999
 30
0.0
 11
119.1275943128999
 21
228.46606748529999
 31
0.0
  0
LINE
  5
553
  8
0
  6
CONTINUOUS
 62
     7
 10
119.1275912305135
 20
228.46606486084011
 30
0.0
 11
119.32066170648559
 21
228.46606486084011
 31
0.0
  0
ENDSEC
  0
EOF
